Search lyrics, chords, tabs

Loading...

Thursday, 25 August 2011

Indian Guitar Tabs : Dil na diya : Krrish Tabs

Hindi Guitar Tabs: Dil na diya : Krrish Tabs
Dil na diya : Krrish Tabs -

HUMMING :-

G |--2-4-5-5-5--4-2--------------------------5-4-2-2-2-------------
D |--------------------5-5-5--5-7-----------------------------------
A |----------------------------------7-7-7--------------------------

MUSIC :-

G |--2-4-2--2--------5-5--2-4-2--2---------5-5---------------------
D |--------------5-7------------------5-7---------------------------
B |------------------5-5---------------------------------------------

G |--5-7-5--5-4-5---------2-4-2--2--------5-2-2--------------------
D |------------------------------------5-----------------------------

G |--2-4-2--2--------5-5--2-4-2--2---------5-5---------------------
D |--------------5-7------------------5-7---------------------------
B |------------------5-5---------------------------------------------

G |--5-7-5--5-4-5---------2-4-2--2--------5-2----------------------
D |------------------------------------5-----------------------------

Dil na liya................ho............................ .........

B |--5-5-5-5---------Am CHORD---------------------------------------

MUSIC :-

E |-----------------3-3-----------------3-3--------------------------
B |--5-5-5-5-3-5---------5-5-5-5-3-5--------------------------------
B |-----------------5-5--2-2-2-2-------5-2-2------------------------
G |--5-5-5-5-4-5-------------------5--------------------------------

Dil na diya di di di di............................
B |--5-5-5-5----5-5-5-5-5-5-5-5------------------------------------

Dil na liya dil na diya To bolo na bolo kya kiya

B |--5-5-5-5--5-5-5-5--5-5-5-6-5---------5-5-----------------------
G |----------------------------------7-5---------7-------------------

Dil na liya dil na diya To bolo na bolo kya kiya
B |--5-5-5-5--5-5-5-5--5-5-5-6-5---------5-5-----------------------
G |----------------------------------7-5---------7-------------------

Aake duniya mein bhi agar Pyar na kiya to kya kiya

B |---------6-5------------5-----------------------------------------
G |---------------7------------7-5--4-4-4-5-4---------4-4-----------
D |--7-7--------------5--------------------------7-5---------7-------

Aake duniya mein bhi agar Pyar na kiya to kya kiya

B |---------6-5------------5-----------------------------------------
G |---------------7------------7-5--4-4-4-5-4---------4-4-----------
D |--7-7--------------5--------------------------7-5---------7-------

HUMMING :-

G |--2-4-5-5-5--4-2--------------------------5-4-2-2-2-------------
D |--------------------5-5-5--5-7-----------------------------------
A |----------------------------------7-7-7--------------------------

MUSIC :-

G |--4-5-4-----------4-3-4---------4-5-4-----------4-3-4-----------
D |----------7-6-7-----------7-7-----------7-6-7-----------7-7------
B |----------------------------------5-6-5-3-2-3-5-6-5--------------

G |--4-5-4-----------4-3-4--------------------------------7-5-4-----
D |----------7-6-7-----------7-7-------------------------------------
B |--6-6-6-6-6-6-----------------------------------------------------

RUN :- ( I don't remember correctly but it may be like this )

B |--8-7-6-5----------------------------------------------------------
G |-------------7-6-5-4-2---------------------------------------------

STANZA :-

Toone chand pe bhi hain jamaaye kadam

B |--5-3-1-3-3-5-5--5-3-1-3-3-5-5------------------------------------

Dariya mein bhi ghar hai banaya

B |-----------6--6-5--5-------------3---------------------------------
G |--5-7--7---------------7-7-5-5-------------------------------------

MUSIC :-

G |--4-2--------------2-4-5-4-2------2-2-2---------------------------
D |--------5-5-5--5---------------5-----------------------------------
G |--4-2--------------2-4-5-4-2------2-2-2-2-2-----------------------
D |--------5-5-5--5---------------5-----------------------------------

Kya jaadu hai ek rotey huay

B |--5-3-1-3-3-5-5--5-3-1-3-3-5-5------------------------------------

Insaan ko hansna sikhaya

B |-----------6--6-5--5-------------3---------------------------------
G |--5-7--7---------------7-7-5-5-------------------------------------

MUSIC :-

G |--4-2--------------2-4-5-4-2------2-2-2---------------------------
D |--------5-5-5--5---------------5-----------------------------------

Oopar waala bhi hanske ek din tumse ye pooche

G |--5------5-------4-------4---------------2-2-2--------------------
D |-------7------7-------5------5-3-3-5-5----------------------------

MUSIC :-

G |--5------5-------4-------4----------------2------------------------
D |-------7------7-------5------5--3-3-5-5----------------------------

THEN AGAIN FROM LINE DIL NA DIYA
Share |

0 comments:

Post a Comment